Add To:

Songbook
|
Set List
Create New

Create
Shout To The Lord: The Platinum Collection featuring Darlene Zschech
Shout to the Lord
Darlene Zschech
Shout To The Lord: The Platinum Collection featuring Darlene Zschech

Preview (partial song; no chords displayed)




My Jesus My Savior Lord, there is none like You
G----------------------------------------------------------
D------------------------------------------------0---------
A-0--------------------------------------------------------
E-----------0-----------2------2----2--0----0--------------
All of my days I want to praise The wonders of your
G----------------------------------------------------------
D--0---0--0-------0---0---0--------------------------------
A-------------0--------------0-------0----0---0--0---0-----
E----------------------------------------------------------
migh-ghty lo-ove
G----------------------------------------------------------
D----------------------------------------------------------
A-------2----0---------------------------------------------
E-3--------------------------------------------------------



Shout to the Lord, all the earth let us sing--
G----------------------------------------------------------
D--0----0-------0-----0-------0-----0----------------------
A-----------4-------------4------------4---2-2-4-----------
E----------------------------------------------------------
Power and majesty, praise to the King
G----------------------------------------------------------
D--0--0-----0---2--4--4------4---2--2----------------------
A--------4-------------------------------------------------
E----------------------------------------------------------
Mountains bow down and the seas will roar
G----------------------------------------------------------
D-0----0---------0-----0-------0---------------------------
A------------4-------------4--------4----2-----------------
E----------------------------------------------------------
At the so-ound Of your na-ame
G----------------------------------------------------------
D-----0-----------------------2----------------------------
A-4-------4-2-0----2--2---4--------------------------------
E----------------------------------------------------------
I sing for joy at the work of your hands
G----------------------------------------------------------
D-0---0------0---0-------0---0-----------------------------
A---------4----------4-----------4---2-2-4-----------------
E----------------------------------------------------------
Forever I'll love you, forever I'll stand
G----------------------------------------------------------
D-0--0--0-------0----2---2-4--4----2---2-------------------
A----------4-----------------------------------------------
E----------------------------------------------------------
Nothing compares to the promise I have in You
G----------------------------------------------------------
D-0---0--------0----0------0-----------------0-------------
A----------4-----------4-------4--2---2--4-----------------
E----------------------------------------------------------
  • ©1993 Darlene Zschech / Hillsongs Australia
  • Darlene Zschech
printed from https://www.1christian.net/rwtc
 



Use this form to add a link or upload a file that will aid others in learning or using this song.
Add a Link

ie: https://www.youtube.com/watch?v=LubWDy5p6IQ

or

All resources will be reviewed before being added to RWTC.
X

Display Settings

Arial
Lucida
Segoe
Tahoma
Verdana
Times
Mono-Space
10
10
10
Dark Stage Mode
1 Col
2 Col
3 Col
Hide Chords
Hide Lyrics
Nashville
Modern
ChordPro
Content
Create Set List
    click to add setlist name
    created on
    used on


      |

      The set list feature is designed for you to be able to create sets of songs.

      1. Click Create Set List
      2. Add a song by click Add To

      1. When on any page with a list of songs, you can drag-n-drop a song into your list.
      2. When on any song page, click the "Add To Set List" button

      1. Share your set list with others
      2. Use it to display songs while practicing/performing
      3. Use to track your sets

      1. Change the order of the songs by simply dragging to the desired location
      2. Change/save the default song key for each song