Add To:

Songbook
|
Set List
Create New

Create
Nobody's Fault But Mine
77s
Drowning With Land in Sight
  1. A
  2. Bb
  3. B
  4. C
  5. Db
  6. D
  7. Eb
  8. E
  9. F
  10. F#
  11. G
  12. Ab

Preview (partial song; no chords displayed)

Ver.1
Its also heavily flanged.  Here's the lower octave:
e---------------------------------------------------------------------------
b--3p0-0-3p0-0-3-3^5--3p0-0-3p0-0---------3p0-0-3-3^5-3-0-------------------
g----------------------------------0-2^4------------------2-0---------------
d---------------------------------------------------------------------------
a---------------------------------------------------------------------------
E---------------------------------------------------------------------------
e---------------------------------------------------------------------------
b---------------------------------------------------------------------------
g-2p1-1-2p1-1-2-2^4^2p1--2--------------------------------------------------
d------------------------2--------------------------------------------------
a------------------------1--------------------------------------------------
E------------------------0--------------------------------------------------
e---------------------------------------------------------------------------
b---------------------------------------------------------------------------
g---------------------------------------------2-----------------------------
d--2p0-0--------------2-----9\7-7-7\4-4-------2-----------------------------
a---------2p0-0-------2-----7\5-5-5\2-2-------0-----------------------------
E----------------3^4--0------------------3^4--------------------------------
And the main rythym:
e---------------------------------------------------------------------------
b---------------------------9--9---------------------9-9-9-10-9-10-9--------
g--7--------7---------------9--9---7------7----------9-9-9-9--9-9--9--------
d--0--7--7--0--7--7---------9--9---0-7-7--0--7-------9-9-9-11-9-11-9--------
a-----0--0-----0--0---5--7--7--7-----0-0-----0--10h11-----------------------
E------------------------0-----0--------------------------------------------
and the ascending chords at the end of each bar(?)
e---------------------------------------------------------------------------
b---------------------------------------------------------------------------
g---------------------------------------------------------------------------
d--2-2--4-4--5-5--7-7-7-7-7-7-7-7-7-----------------------------------------
a--2-2--4-4--5-5--7-7-7-7-7-7-7-7-7-----------------------------------------
E--0-0--2-2--3-3--5-5-5-5-5-5-5-5-5-----------------------------------------
The solo's kind of tough and I really dont remember it.
Heres the ending sequence of the song:
e---------------------------------------------------------------------------
b---------------------------------------------------------------------------
g---------------------------------------------------------------------------
d-------------------------------------------2-2-2---------------------------
a-14\12-12-12-12\9-9-9-9-9\7-7-7-7-7\5------2-2-2---------------------------
E-12\10-10-10-10\7-7-7-7-7\5-5-5-5-5\3-3^4--0-0-0---------------------------
Enjoy!
CHUCK
Ver.2
Nobody's Fault But Mine
by Page and Plant
Unledded
D-----------------------------------------------------------------]
A-----------------------------------------------------------------]
F-2-2-2-2---2-0-0-0-0----2-2-2-2-------------------------2--------]
C-2-2-2-2---2------------2-2-2-2------------------2------0---2----]
G-0-0-0-0---0------------0-0-0-0------------------0--0-3---3-0----]
D---------3----------------------3--0-----3-2-0-2-------------3-0-]
D---------]
A---------]
F---------]
C-----2---]
G-----0---]
D-0-3-----]
Well that's basically it.  The next couple of times through there
is a few percussive notes here and there, most notably 1 percussive
note in place of F-----0-0-0-0-;  play a heavy  ---
-©©
-x-
-x-
-x-
©©©
I'll check the original notes when I go home and post any
corrections if need be.  Otherwise, this is the way she is folks.
Only a few conditions regarding this post:

(1) learn the riff
(2) play it everywhere
(3) show others how to play it
(4) enjoy the music
(5) tell everyone it was written by Jimmy Page
"....I'm so happy, I wanna join the band, we're gonna sing and
dance in celebration, 'cause we're in the Promised Land...."
Ver.3
Nobody's Fault But Mine
- Led Zeppelin
>From the CD set 'Remasters'
Written by Page/Plant
Atlantic Records  82371-2
This tab is not 100% correct, but it is close enough. The
original transcription is from Charles Eric Horowitz
rhythm
parts, and the solo. The key is A.
Jimmy Pena - jimmy@walrus.com
| = not a standard bar line; just used to separate music
~ = vibrato or held note
x = percussive note with no pitch; muted note
.. = staccato; mute the note immediately after striking it
h = hammer on
p = pull off
s = slide
b = bend string up to indicated pitch/fret
r = release bend to indicated string/fret
/ = slide up from infinity
\ = slide down into infinity
o  \_
o  /   repeat sign (always look for these!)
e:-------------------------------|-------------------------------------|
B:-15p12-12-15p12-12-15-15b17~---|-15p12-12-15p12-12-------------------|
G:-------------------------------|-------------------12-14b16~---------|
D:-------------------------------|-------------------------------------|
A:-------------------------------|-------------------------------------|
E:-------------------------------|-------------------------------------|
e:----------------------------------|--------------------------------|
B:-15p12-12-15~--15b17---15-12------|--------------------------------|
G:-----------------------------14p12|-14p13-13-14p13-13-14-14b16r14--|
D:----------------------------------|--------------------------------|
A:----------------------------------|--------------------------------|
E:----------------------------------|--------------------------------|
e:--------------------|
B:--------------------|
G:-13-----------------|
D:----14~-------------|
A:--------------------|
E:--------------------|
e:-----------------------|----------------------|--------------------|
B:--3p0-0-3p0-0-3--3b5~--|-3p0-0-3p0-0----------|-3p0-0-3~--3b5--3-0-|
G:-----------------------|-------------0--2b4~--|--------------------|
D:-----------------------|----------------------|--------------------|
A:-----------------------|----------------------|--------------------|
E:-----------------------|----------------------|--------------------|
e:------|------------------------------------------------------------|
B:------|------------------------------------------------------------|
G:-2p0~-|-2p1-1-2p1-1-2--2b4r2--1---1~-------------------------------|
D:------|---------------------------2~-------------------------------|
A:------|---------------------------2~-------------------------------|
E:------|---------------------------0~-------------------------------|
e:-----------------------------|-------------------------------------|
B:-----------------------------|-------------------------------------|
G:----------7------------------|-----------7-------------------------|
D:--9p7-----7------------------|---9p7--7--7------------2~-----------|
A:--7p5--7--5p2--2-------------|---7p5--5--5----0-------0~-----------|
E:------------------3b---0~----|--------------------3b---------------|
e:-------------------------|-----------------------------------------|
B:-------------------------|-----------------------------------------|
G:-------------------------|----------------------2~-----------------|
D:-2p0-0-------------------|--2p0-0---------------2~-----------------|
A:-------2p0---------------|--------2p0--0--------0~-----------------|
E:-----------0---3b---0~---|----------------3b4----------------------|
e:-----------------------|-------------------------------------------|
B:-----------------------|-------------------------9-9-10-10--9-10---|
G:-7-----7-7-----9-x-x-9-|--7-----7---7---------9--9-9--9--9--9--9---|
D:-7-----7-7---9-9-x-x-9-|--7-----7---7--------11--9-9-11-11--9-11---|
A:-5-0-0-5-0-0-7-7-x-x-7-|--5-0-0-5-0-0--10-11-----------------------|
E:-------------0---------|-------------------------------------------|
Song progression:
Aah aah aah aah,
Aah aah aah aah.
Aah aah, aah aah aah aah aah,
Aah aah aah ah ah ah aah.
Oh, nobody's fault but mine,
oh, nobody's fault but mine, yeah,
tryin' to save my soul Delilah.
Oh it's nobody's fault but mine.
Devil he taught me to roll,
the Devil he taught me to roll,
how to roll the log Delilah.
Oh it's nobody's fault but mine.
Aah aah aah aah,
Aah aah aah aah.
Aah aah, aah aah aah aah aah,
Aah aah aah ah ah ah aah.
During Harmonica solo, guitar plays:
Brother he showed me the gong,
brother he showed me the ding dong ding dong,
how to kick that gong Delilah.
Oh it's nobody's fault but mine.
Gotta monkey on my back,
a m-m-m-m-monkey on my back back back back.
Vow to change my ways Delilah.
Nobody's fault but mine.
Rhythm for guitar solo is: [Riff 1] x2, then [Riff 3] x8
e:-------------------------------------------------------------------|
B:---------------3~--------------------------------------------------|
G:--2b4r3b4~---------2b3r2b3r2p0------0~~----0b2r0b2r0---------------|
D:----------------------------------2-------------------2~-----------|
A:-------------------------------------------------------------------|
E:-------------------------------------------------------------------|
/                               (bend the open note behind the nut)
e:-------3-----3----5h6---5--3---5--3-----3--------------------------|
B:-----3---5~----5--------------------5------------------------------|
G:-2h4-------------------------------------------------------9~------|
D:------------------------------------------------------9h11---------|
A:-------------------------------------------------7h11--------------|
E:-------------------------------------------------------------------|
e:------------------------------------------12-9----9----------------|
B:-----------------------------------------------12---12-9--------12-|
G:-11b13r11b13r11p9----11--9----9~-------------------------11b13-----|
D:---------------------------11----11--------------------------------|
A:-------------------------------------------------------------------|
E:-------------------------------------------------------------------|
e:-9----9------------------------------------------------------------|
B:---12---12~-9--------------------------------------12b14r12b14~----|
G:--------------11--11b13--11-9----9-9----9~-9-----------------------|
D:------------------------------11-----11------11--------------------|
A:-------------------------------------------------------------------|
E:-------------------------------------------------------------------|
e:-------------------------------------------------------------------|
B:-12--11b12---10---------10-------------------12b14r12b14~------12--|
G:----------------12b14------12-11-9-9~--9---------------------------|
D:-----------------------------------------11------------------------|
A:-------------------------------------------------------------------|
E:-------------------------------------------------------------------|
e:-------------------------------------------------------------------|
B:--9----9~--x--10------11b12------11b12-----11b12------11b12--------|
G:----11---------9--------------x----------x---------x----------x----|
D:-------------------------------------------------------------------|
A:-------------------------------------------------------------------|
E:-------------------------------------------------------------------|
e:-------------------------------------------------12----------------|
B:-11b12------11b12-----------------------------12-----15b17~~-------|
G:---------x----------x--x---9----9----9--11h13----------------------|
D:-----------------------------11---11-------------------------------|
A:-------------------------------------------------------------------|
E:-------------------------------------------------------------------|
e:-15.--------15.--------15---------------15.---------15.------------|
B:----15b17------15b17------15----------------15b17-------15b17r15---|
G:-----------------------------14b15r14------------------------------|
D:-------------------------------------------------------------------|
A:-------------------------------------------------------------------|
E:-------------------------------------------------------------------|
e:------------------------------------12-----------------------------|
B:-12------------------------------------15~--------12-12-15---------|
G:----14b15----12-14-12b13------12h13---------12s13------------------|
D:---------------------------14--------------------------------------|
A:-------------------------------------------------------------------|
E:-------------------------------------------------------------------|
e:-------------------------------------------------------------------|
B:-------12-12-15~-----------------------------------------------9---|
G:-12s13------------14b16r14b16r14-----------9--9----9---11b13-------|
D:-----------------------------------14-x---------11-----------------|
A:-------------------------------------------------------------------|
E:-------------------------------------------------------------------|
e:-9----------------------------------------------14b16----14--12~---|
B:----12p9-12p9----9---------------------------12--------------------|
G:--------------11---11p9-11p9----9----9-11s13-----------------------|
D:-----------------------------11---11-------------------------------|
A:-------------------------------------------------------------------|
E:-------------------------------------------------------------------|
e:-12------------12--14b16----14--12----12--------12--14b16----------|
B:----15------12---------------------15---------12-------------------|
G:---------13---------------------------------x----------------------|
D:-------------------------------------------------------------------|
A:-------------------------------------------------------------------|
E:-------------------------------------------------------------------|
e:-14b16r14---12---12~--12p9-----------------------------------------|
B:---------------x-----------12-9-----------------------10-----------|
G:------------------------------------9----11----9----9-11-9--9~~----|
D:---------------------------------11---11----11---11----------------|
A:-------------------------------------------------------------------|
E:-------------------------------------------------------------------|
phaser)
Aah aah aah aah,
Aah aah aah aah.
Aah aah, aah aah aah aah aah,
Aah aah aah ah ah ah aah.
I will get down rollin' tonight.
N-n-n-n-n-n-n nobody's fault...
e:----------------------|--------------------------------------------|
B:----------------------|--------------------------------------------|
G:--7-----7-7---7--9~---|--------------------------------------------|
D:--7-----7-7---7--9~---|--9s7--7--7s4--4--4s2--2--------------------|
A:--5-0-0-5-0-0-5--7~---|--7s5--5--5s2--2--2p0--0---5-5-5--2-2-2-2---|
E:----------------------|---------------------------3-3-3--0-0-0-0---|
The 77's Lyrics
(By Blind Willie Johnson)
Aah aah aah aah, (etc)
Oooo, It's nobody's fault but mine
It's nobody's fault but mine
If I don't keep my soul alive
Its nobodies fault but mine
The devil he told me to roam
The devil he told me to roam, roam, roam
I've been a roamin' into the night
Well, It's nobody's fault but mine
ah.....
I've got a Bible in my house
I've got a Bible in my house
If I don't read it and my soul dies
Well, It's nobody's fault but mine
My sister she told me to read it
My sister she told me to read, read, read
I didn't read it, lost the light
Well, It's nobody's fault but mine
ah.....
If I don't keep my soul alive
Well, No No No Nobody's Fault
  • Robert Plant and Jimmy Page
printed from https://www.1christian.net/rwtc
 



Use this form to add a link or upload a file that will aid others in learning or using this song.
Add a Link

ie: https://www.youtube.com/watch?v=LubWDy5p6IQ

or

All resources will be reviewed before being added to RWTC.
X

Display Settings

Arial
Lucida
Segoe
Tahoma
Verdana
Times
Mono-Space
10
10
10
Dark Stage Mode
Hide Chords
Hide Lyrics
Nashville
Modern
ChordPro

Sign In

Sign In
     
Cancel
I forgot my password
Content
Create Set List
    click to add setlist name
    created on
    used on


      |

      The set list feature is designed for you to be able to create sets of songs.

      1. Click Create Set List
      2. Add a song by click Add To

      1. When on any page with a list of songs, you can drag-n-drop a song into your list.
      2. When on any song page, click the "Add To Set List" button

      1. Share your set list with others
      2. Use it to display songs while practicing/performing
      3. Use to track your sets

      1. Change the order of the songs by simply dragging to the desired location
      2. Change/save the default song key for each song