Add To:

Songbook
|
Set List
Create New

Create
Smalltown Poets
Ill Give
Small Town Poets
Smalltown Poets

Preview (partial song; no chords displayed)

~Song: I'll Give
~Artist: SmallTown Poets
Album: SmallTown Poets
Copyright: (C) 1996 Ardent/Koala & SmallTown Poetry
Tabbed by: Josh Gardner (cuinheaven@alloymail.com)
-=-=-=-=-=-=-=-=-=-=-=-=-=-=-=-=-=-=-=-=-=-=-=-=-=-=-=-=-
The last posting had some mistakes, I know this one isn't
perfect either, but it's as close as I can get it........
-=-=-=-=-=-=-=-=-=-=-=-=-=-=-=-=-=-=-=-=-=-=-=-=-=-=-=-=-
This song is fairly easy to play, it takes a little practice,
but it's worth it. This is a quiet song, guitars are clean, I
like a little overdrive (not much, just enough to notice) in
the solo.
-=-=-=-=-=-=-=-=-=-=-=-=-=-=-=-=-=-=-=-=-=-=-=-=-=-=-=-=-
top one is easier)
e-----------------------------------------
B--0--4--0--5--0--4--5--0--5--0--5----2--0
G-----------------------------------2-----
or
e-----------------------
B----4--5--4--5--5--2--0
G--4--4--4------4--4--2-
e-----------------------------------------
B--0--4--0--5--0--4--5--0--5--0--5----2--0
G-----------------------------------2-----
Then strum this (C#m, B2, A2)
e--4--2--0--0--
B--5--2--0--0--
G--6--4--2--2--
D--6--4--2--2--
A--4--2--0--0--
E--X--X--X--X--
Stum this also, it's the same thing,
but this one adds a B2 at the end...
e--4--2--0--2--
B--5--2--0--2--
G--6--4--2--4--
D--6--4--2--4--
A--4--2--0--2--
E--X--X--X--X--



e--0--0--0--0--
B--0--0--0--0--
G--1--1--2--2--
D--2--2--2--2--
A--2--2--0--0--
E--0--0--X--X--
e--0--0--0--0--
B--0--0--0--0--
G--1--1--2--2--
D--2--2--2--2--
A--2--2--0--0--
E--0--0--X--X--
e--4--2--0--0--
B--5--2--0--0--
G--6--4--2--2--
D--6--4--2--2--
A--4--2--0--0--
E--X--X--X--X--

    printed from https://www.1christian.net/rwtc
     



    Use this form to add a link or upload a file that will aid others in learning or using this song.
    Add a Link

    ie: https://www.youtube.com/watch?v=LubWDy5p6IQ

    or

    All resources will be reviewed before being added to RWTC.
    X

    Display Settings

    Arial
    Lucida
    Segoe
    Tahoma
    Verdana
    Times
    Mono-Space
    10
    10
    10
    Dark Stage Mode
    Hide Chords
    Hide Lyrics
    Nashville
    Modern
    ChordPro

    Sign In

    Sign In
         
    Cancel
    I forgot my password
    Content
    Create Set List
      click to add setlist name
      created on
      used on


        |

        The set list feature is designed for you to be able to create sets of songs.

        1. Click Create Set List
        2. Add a song by click Add To

        1. When on any page with a list of songs, you can drag-n-drop a song into your list.
        2. When on any song page, click the "Add To Set List" button

        1. Share your set list with others
        2. Use it to display songs while practicing/performing
        3. Use to track your sets

        1. Change the order of the songs by simply dragging to the desired location
        2. Change/save the default song key for each song