Add To:

Songbook
|
Set List
Create New

Create
Woody
77s

Preview (partial song; no chords displayed)

WOODY
by the Seventy Sevens off of the Pray Naked CD
This is a song made up purely of heavy guitar riffs. nothing better than this....
E|----------------------------------------------|
B|----------------------------------------------|
G|----------------------------------------------|
D|------------5-5---------5-5---------5-5-------|
A|----7-7-7-------7-7-7--------7-7-7------------|
E|----------------------------------------------|
RIFF A
E|----------------------------------------------|
B|----------------------------------------------|
G|----------------------------------------------|
D|----------------------------------------------|
A|---7--5---------------------------------------|
E|-----------7--6--5---6---7--3-----------------|
RIFF B
E|-----------------------------------------------|-------------------|
B|--------------------------------------------The bend on the 3rd fret
G|--------------------------------------------of the E string is played
D|--------------H-----------------------H-----between a few of the riffs
A|-------H--H--5--7-----------H-H-----5--7-------|-------------------|
E|--0--5--6--7---------0-----5-6-7---------------|-----3(bend)-------|
Riff C
E|----------------------------------------------------------------|
B|----------------------------------------------------------------|
G|----------------------------------------------------------------|
D|----------------------------------------------------------------|
A|--------------5--5-------------------5--5--5/7------------------|
E|---0--3--0---------0--0--3(bend)--0-----------------------------|
RIFF D
E|----------------------------------------------------------------------|
B|----------------------------------------------------------------------|
G|----------------------------------------------------------------------|
D|---5-4-3---------------------5-4-3--------------------5-4-3-----------|
A|---------5-4-3---------------------5-4-3---3-5--------------5-4-3-----|
E|---------------3-6(bend)-3---------------6-----6(bend)-----------3-6-3|
RIFF E
E|---------------------------------------------------------------------|
B|---------------------------------------------------------------------|
G|---------H----------H------------------(whammy dives and bends)------|
D|---H-H--3-5---H-H--3-5--H-H--3/7----7----7------7----7----7----------|
A|--3-4-5------3-4-5-----3-4-5-------------0----------------0----------|
E|---------------------------------------------------------------------|
RIFF F
E|---------------------------------------------------------------------|
B|---------------------------------------------------------------------|
G|-------------------------------------------------------H-------------|
D|-------------P------5--5--5--------------------5--5--5---7-----------|
A|----0-----3----0---------------0--0---3----0-------------------------|
E|---------------------------------------------------------------------|
RIFF G
E|---------------------------------------------------------------------|
B|----------H----------------------------------------------------------|
G|---H-H---7-9----------H--------------H--------------H----------------|
D|--7-8-9--------H-H---7-9------H-H---5-7----------H--5-H--------------|
A|--------------7-8-9-------0--5-6-7--------H-H---5-7---7--------------|
E|-----------------------------------------5-6-7-----------------------|



E|------------------------------------12---10-------12---.....19\12----|
B|-------------------------------12-------------12---------------------|
G|--------------------------12-----------------------------------------|
D|-----------14--14--14------------------------------------------------|
A|---------------------------------------------------------------------|
E|---------------------------------------------------------------------|



E|--------------------|
B|--------------------|
G|------------5-------|
D|--------------------|
A|-----3--3-----------|
E|----------------0---|
************************************************************************
RIFF A X 1
RIFF B X 8
harmonic on the fifth fret strings 3 and 2



I'm staring headlong into the jaws of death, all right
RIFF C X 2
Big teeth, big mouth, bad, bad breath, yech!
RIFF C X 2



And I promised myself i'd never do this again
And i don't understand it



RIFF C
Help me, I'm going down again
RIFF C
Help me, I can't tell none of my friends
RIFF C
One, Two, Three, Oh - struck out again
RIFF C RIFF B
Pull a sheet over me but don't cover my head

    printed from https://www.1christian.net/rwtc
     



    Use this form to add a link or upload a file that will aid others in learning or using this song.
    Add a Link

    ie: https://www.youtube.com/watch?v=LubWDy5p6IQ

    or

    All resources will be reviewed before being added to RWTC.
    X

    Display Settings

    Arial
    Lucida
    Segoe
    Tahoma
    Verdana
    Times
    Mono-Space
    10
    10
    10
    Dark Stage Mode
    Hide Chords
    Hide Lyrics
    Nashville
    Modern
    ChordPro
    Content
    Create Set List
      click to add setlist name
      created on
      used on


        |

        The set list feature is designed for you to be able to create sets of songs.

        1. Click Create Set List
        2. Add a song by click Add To

        1. When on any page with a list of songs, you can drag-n-drop a song into your list.
        2. When on any song page, click the "Add To Set List" button

        1. Share your set list with others
        2. Use it to display songs while practicing/performing
        3. Use to track your sets

        1. Change the order of the songs by simply dragging to the desired location
        2. Change/save the default song key for each song