Add To:

Songbook
|
Set List
Create New

Create
Jars Of Clay
He
Jars Of Clay
Jars Of Clay

Preview (partial song; no chords displayed)

Author/Artist: Jars of Clay
Title: He
Album: Jars of Clay
Transcribed by: Brian Germer (Soul Detergent Music)
Email: BJG20773@ix.netcom.com
For a lesson on the tuning visit the Jars of Clay page ar Jars of Christian
Guitar Tabs: http://www.geocities.com/SunsetStrip/Lounge/6098/index.htm
--------------------------------------------------------0-----0--0-----0------
--------------------------------------------------------0-----0--0-----0------
--------------------------------------------------------0-----0--0-----0------
--------------------------------------------------------0-----0--0-----0------
--12--12-12-x---10--10-10-10-10-10-10--9--9--9--x---5---5--5--5--5--5--5------
--3---3--3--3---3---3--3--3--3--3--3---3--3--3--3---3---3--3--3--3--3--3------
--------------------------------------------------------0-----0--0-----0------
--------------------------------------------------------0-----0--0-----0------
--------------------------------------------------------0-----0--0-----0------
--12--12-12-x---10--10-10-10-10-10-10--8--8--8--x---5---5--5--5h-7--7--7------
--3---3--3--3---3---3--3--3--3--3--3---3--3--3--3---3---3--3--3--3--3--3------
------------------------------------------------------------------------------
--------------------------------------|---------------------------------------
---10-10-10----12-----10-10-10----12--|--10-10-10----8------10-10-10----5-----
----3--3--3-----3------3--3--3-----3--|---3--3--3----3-------3--3--3----3-----
---10-10-10----12-----10-10-10----12--|--10-10-10----8------10-10-10----5-----
--------------------------------------|---------------------------------------
--------------------------------------|---------------------------------------
Chords used:
----3----3----3---------------------------------------------------------------
----3----3----3----5----8----12----10-----8-----------------------------------
----3----3----5----3----3-----3-----3-----3-----------------------------------
----3----5----3----5----8----12----10-----8-----------------------------------
----5----3----5----3----3-----3-----3-----3-----------------------------------
----3--------------5----7----12----10-----8-----------------------------------
G C D A C/B Em D(II) C(II)
Don't try to reach me, I'm already dead
The pain when it grips me, for the things that I've done
Pre-Chourus:
G
Well, I try to make you proud,
C
but for crying out loud
G C D
Just give me a place to hide away
G C
Exhaustion takes over,
G C D
will this someday be over?



Chours:
G C D G
Fearful tears are running down
G C D G
The pain you've laid, don't speak a sound
G C D G
Don't take my heart away from me
G C D(II)
And they think I fell down
Daddy, don't you love me
Then why do you hit me
And Momma don't you love me
Then why do you hurt me
(Pre-Chorus)
(Chorus)
Refrain: D(II) C(II) D(II) C(II) G G 2x
D(II) C(II) D(II)
A teardrop falls from up in the heavens
Drowning the sorrow of angels in high
For the least of the hopeless, the helpless, the loveless
My Jesus, His children, He holds in His arms



c1995 Pogostick Music/Bridgebuilding Music/by Brentwood Music Publishing, Inc.
    printed from https://www.1christian.net/rwtc
     



    Use this form to add a link or upload a file that will aid others in learning or using this song.
    Add a Link

    ie: https://www.youtube.com/watch?v=LubWDy5p6IQ

    or

    All resources will be reviewed before being added to RWTC.
    X

    Display Settings

    Arial
    Lucida
    Segoe
    Tahoma
    Verdana
    Times
    Mono-Space
    10
    10
    10
    Dark Stage Mode
    Hide Chords
    Hide Lyrics
    Nashville
    Modern
    ChordPro
    Content
    Create Set List
      click to add setlist name
      created on
      used on


        |

        The set list feature is designed for you to be able to create sets of songs.

        1. Click Create Set List
        2. Add a song by click Add To

        1. When on any page with a list of songs, you can drag-n-drop a song into your list.
        2. When on any song page, click the "Add To Set List" button

        1. Share your set list with others
        2. Use it to display songs while practicing/performing
        3. Use to track your sets

        1. Change the order of the songs by simply dragging to the desired location
        2. Change/save the default song key for each song