Add To:

Songbook
|
Set List
Create New

Create
Much Afraid
Crazy Times
Jars Of Clay
Much Afraid

Preview (partial song; no chords displayed)

I am 400% sure this is right! I saw matt odmark play this song in
Disney World's Night Of Joy, you are about to read the only
correct version on the web!
---3------3-----------3------3------------3------3---------0-|
---0------0-----------0------0------------0------0---------0-|
---0------2-----------0------2------------0------2---------4-|
---2------0-----------2------0------------2------0---------4-|
---3------0-----------3------0------------3------0---------2-|
-------------------------------------------------------------|



your cold that way and thats why you say the things that you say
---3---------3----3------3---------------3-------3---------------0-|
---0---------0----0------0---------------0-------0---------------0-|
---0---------2----0------2---------------0-------2---------------4-|
---2---------0----2------0---------------2-------0---------------4-|
---3---------0----3------0---------------3-------0---------------2-|
-------------------------------------------------------------------|
you cant attract the things that you lack your trying in vain
---3---------3----3------3---------------3---------3----------3----0-0|
---0---------0----0------0---------------0---------0----------0----3-3|
---0---------2----0------2---------------0---------2----------0----2-2|
---2---------0----2------0---------------2---------0----------0----0-0|
---3---------0----3------0---------------3---------0----------2------0|
--------------------------------------------------------------3-------|



E C G D Em
It seems it always the crazy times
C G Am* E C
you find you wake up and realize it takes
G D A or Tab electric**
more than your saline eyes to make things right



you spiral down youve broken your crown you dont feel like a queen
---3------3----3---------3------------3-------------3------------0-|
---0------0----0---------0------------0-------------0------------0-|
---0------2----0---------2------------0-------------2------------4-|
---2------0----2---------0------------2-------------0------------4-|
---3------0----3---------0------------3-------------0------------2-|
-------------------------------------------------------------------|
youve seen the proof your still crying wolf you'll never believe
---3-----3--------3----------3------------3-----------3----------3----0-0|
---0-----0--------0----------0------------0-----------0----------0----3-3|
---0-----2--------0----------2------------0-----------2----------0----2-2|
---2-----0--------2----------0------------2-----------0----------0----0-0|
---3-----0--------3----------0------------3-----------0----------2------0|
-----------------------------------------------------------------3-------|





E C G D Em
It seems it always the crazy times
C G Am* E C
you find you wake up and realize it takes
G D A or Tab electric**
more than your saline eyes to make things right



C^7
You try to climb a broken ladder
C^7
Grip the missing rungs and fall
Em D Em D
Down, Down, Down, Down
C^7
Seems sometime ago you said
C^7 A
This wouldnt last, and now you sit here Cryin






beside your bed you feel left for dead you kneel in the dark
---3-----3--------3----------3------------3-----3----------3----0-0|
---0-----0--------0----------0------------0-----0----------0----3-3|
---0-----2--------0----------2------------0-----2----------0----2-2|
---2-----0--------2----------0------------2-----0----------0----0-0|
---3-----0--------3----------0------------3-----0----------2------0|
-----------------------------------------------------------3-------|






---3------3-----------3------3------------3------3---------0-|
---0------0-----------0------0------------0------0---------0-|
---0------2-----------0------2------------0------2---------4-|
---2------0-----------2------0------------2------0---------4-|
---3------0-----------3------0------------3------0---------2-|
-------------------------------------------------------------| end on Esus



0---0-0-2-3-2-0--0-----0--
--3----------------3-0----
-------------------------2 end on B
--------------------------
--------------------------
--------------------------
Am*
-----
--5--
--5--
--5--
-----
-----
A or Tab electric**
------------0------------------0---------
-------0---------0--------0---------0----
-----2----2----2--------2----2----2------
-----------------------------------------
-----------------2-----------------------
--2--------------------------------------
  • ©Essential Records
  • Dan Haseltine
printed from https://www.1christian.net/rwtc
 



Use this form to add a link or upload a file that will aid others in learning or using this song.
Add a Link

ie: https://www.youtube.com/watch?v=LubWDy5p6IQ

or

All resources will be reviewed before being added to RWTC.
X

Display Settings

Arial
Lucida
Segoe
Tahoma
Verdana
Times
Mono-Space
10
10
10
Dark Stage Mode
Hide Chords
Hide Lyrics
Nashville
Modern
ChordPro
Content
Create Set List
    click to add setlist name
    created on
    used on


      |

      The set list feature is designed for you to be able to create sets of songs.

      1. Click Create Set List
      2. Add a song by click Add To

      1. When on any page with a list of songs, you can drag-n-drop a song into your list.
      2. When on any song page, click the "Add To Set List" button

      1. Share your set list with others
      2. Use it to display songs while practicing/performing
      3. Use to track your sets

      1. Change the order of the songs by simply dragging to the desired location
      2. Change/save the default song key for each song