Add To:

Songbook
|
Set List
Create New

Create
Essential
Coffee
Jars Of Clay
Essential

Preview (partial song; no chords displayed)

Title: Good Coffee, Strong Coffee (The Coffee Song)
Artist: Jars of Clay
Album: Seatbelt Tuba
Copyright 1997 Essential Record
Tabbed by: T.C. Long (tlong@comp.uark.edu)
---------------------------------------------------------
This is from Seatbelt Tuba, the bonus CD that came with
Much Afraid if you bought it through Family Christian
Bookstores. Much thanks to David Norwood
(davidnorwood@earthlink.net) for his original post.
And a special thanks to Alex Chen
thatalex@thewatercooler.com) for correcting the
second cord in the jazz bridge. Great ear, my friend!!!
---------------------------------------------------------

e---7-----7--7--+---5-----------+
B---8-----8--8--|---5-----------|
G---7-----7--7--|---5-----------|
D---9-----9--9--|---5-----------| (X2)
A---7-----7--7--|---7-----------|
E---7-----7--7--+---5-----------+
1 & 2 & 3 & tacet...
e---7-----7--7--+---5-----5--5--+---3-----3--3--+---3--2----0----+
B---8-----8--8--|---5-----5--5--|---3-----3--3--|---3--3----3----|
G---7-----7--7--|---5-----5--5--|---4-----4--4--|---2--2----2----|
D---9-----9--9--|---5-----5--5--|---5-----5--5--|---0--0----0----|
A---7-----7--7--|---7-----7--7--|---5-----5--5--|---x--x----x----|
E---7-----7--7--+---5-----5--5--+---3-----3--3--+---x--x----x----+
1 & 2 & 3 & 1 & 2 & 3 & 1 & 2 & 3 & 1 & 2 & 3 &
e---7-----7--7--+---5-----5--5--+---3-----3--3--+---2------------+
B---8-----8--8--|---5-----5--5--|---3-----3--3--|---3------------|
G---7-----7--7--|---5-----5--5--|---4-----4--4--|---2------------|
D---9-----9--9--|---5-----5--5--|---5-----5--5--|---0------------|
A---7-----7--7--|---7-----7--7--|---5-----5--5--|---x------------|
E---7-----7--7--+---5-----5--5--+---3-----3--3--+---x------------+
1 & 2 & 3 & 1 & 2 & 3 & 1 & 2 & 3 & tacet...
e---7-----7--7--+---5-----5--5--+---3-----3--3--+---3--2----0----+
B---8-----8--8--|---5-----5--5--|---3-----3--3--|---3--3----3----|
G---7-----7--7--|---5-----5--5--|---4-----4--4--|---2--2----2----|
D---9-----9--9--|---5-----5--5--|---5-----5--5--|---0--0----0----|
A---7-----7--7--|---7-----7--7--|---5-----5--5--|---x--x----x----|
E---7-----7--7--+---5-----5--5--+---3-----3--3--+---x--x----x----+
1 & 2 & 3 & 1 & 2 & 3 & 1 & 2 & 3 & 1 & 2 & 3 &
Call it ob - session, Call it fa - natical,
e---7-----7--7--+---5-----5--5--+---3-----3--3--+---3--2----0----+
B---8-----8--8--|---5-----5--5--|---3-----3--3--|---3--3----3----|
G---7-----7--7--|---5-----5--5--|---4-----4--4--|---2--2----2----|
D---9-----9--9--|---5-----5--5--|---5-----5--5--|---0--0----0----|
A---7-----7--7--|---7-----7--7--|---5-----5--5--|---x--x----x----|
E---7-----7--7--+---5-----5--5--+---3-----3--3--+---x--x----x----+
1 & 2 & 3 & 1 & 2 & 3 & 1 & 2 & 3 & 1 & 2 & 3 &
I am not trying to make this a spectacle.
e---7-----7--7--+---5-----5--5--+---3-----3--3--+---2------------+
B---8-----8--8--|---5-----5--5--|---3-----3--3--|---3------------|
G---7-----7--7--|---5-----5--5--|---4-----4--4--|---2------------|
D---9-----9--9--|---5-----5--5--|---5-----5--5--|---0------------|
A---7-----7--7--|---7-----7--7--|---5-----5--5--|---x------------|
E---7-----7--7--+---5-----5--5--+---3-----3--3--+---x------------+
1 & 2 & 3 & 1 & 2 & 3 & 1 & 2 & 3 & tacet...
but I have this craving, that justifies be - having.
e---7-----7--7--+---5-----5--5--+---3-----3--3--+---2--2----2----+
B---8-----8--8--|---5-----5--5--|---3-----3--3--|---3--3----3----|
G---7-----7--7--|---5-----5--5--|---4-----4--4--|---2--2----2----|
D---9-----9--9--|---5-----5--5--|---5-----5--5--|---0--0----0----|
A---7-----7--7--|---7-----7--7--|---5-----5--5--|---x--x----x----|
E---7-----7--7--+---5-----5--5--+---3-----3--3--+---x--x----x----+
1 & 2 & 3 & 1 & 2 & 3 & 1 & 2 & 3 & 1 & 2 & 3 &
I really need some of that...



E F# D A
Oooooo, Oooooo, Ooooo, Good Coffee, Strong
E F# D A
Coffee, eeeeee, eeeee, I need to
E F# D A
have some, Ooooo, Ooooo, Good Coffee, Strong
E F# D A
Coffee, eeeeee, eeeee. tacet...
e---7-----7--7--+---5-----5--5--+---3-----3--3--+---3--2----0----+
B---8-----8--8--|---5-----5--5--|---3-----3--3--|---3--3----3----|
G---7-----7--7--|---5-----5--5--|---4-----4--4--|---2--2----2----|
D---9-----9--9--|---5-----5--5--|---5-----5--5--|---0--0----0----|
A---7-----7--7--|---7-----7--7--|---5-----5--5--|---x--x----x----|
E---7-----7--7--+---5-----5--5--+---3-----3--3--+---x--x----x----+
1 & 2 & 3 & 1 & 2 & 3 & 1 & 2 & 3 & 1 & 2 & 3 &
e---7-----7--7--+---5-----5--5--+---3-----3--3--+---2------------+
B---8-----8--8--|---5-----5--5--|---3-----3--3--|---3------------|
G---7-----7--7--|---5-----5--5--|---4-----4--4--|---2------------|
D---9-----9--9--|---5-----5--5--|---5-----5--5--|---0------------|
A---7-----7--7--|---7-----7--7--|---5-----5--5--|---x------------|
E---7-----7--7--+---5-----5--5--+---3-----3--3--+---x------------+
1 & 2 & 3 & 1 & 2 & 3 & 1 & 2 & 3 & tacet...

    printed from https://www.1christian.net/rwtc
     



    Use this form to add a link or upload a file that will aid others in learning or using this song.
    Add a Link

    ie: https://www.youtube.com/watch?v=LubWDy5p6IQ

    or

    All resources will be reviewed before being added to RWTC.
    X

    Display Settings

    Arial
    Lucida
    Segoe
    Tahoma
    Verdana
    Times
    Mono-Space
    10
    10
    10
    Dark Stage Mode
    1 Col
    2 Col
    3 Col
    Hide Chords
    Hide Lyrics
    Nashville
    Modern
    ChordPro
    Content
    Create Set List
      click to add setlist name
      created on
      used on


        |

        The set list feature is designed for you to be able to create sets of songs.

        1. Click Create Set List
        2. Add a song by click Add To

        1. When on any page with a list of songs, you can drag-n-drop a song into your list.
        2. When on any song page, click the "Add To Set List" button

        1. Share your set list with others
        2. Use it to display songs while practicing/performing
        3. Use to track your sets

        1. Change the order of the songs by simply dragging to the desired location
        2. Change/save the default song key for each song