Add To:

Songbook
|
Set List
Create New

Create
Come Together
When The Rain Comes
Third Day
Come Together
  1. A
  2. Bb
  3. B
  4. C
  5. Db
  6. D
  7. Eb
  8. E
  9. F
  10. F#
  11. G
  12. Ab

Preview (partial song; no chords displayed)

Tab: does not transpose w/ chords
E |-------------------------|
B |--------3----------------|
G |-----4-----4-------------|
D |--5----------------------|
A |-------------------------|
E |-------------------------|
E |-------------------------|
B |--------3----------------|
G |-----4-----4-------------|
D |--4----------------------|
A |-------------------------|
E |-------------------------|
E |-------------------------|
B |--------3----------------|
G |-----0-----0-------------|
D |--2----------------------|
A |-------------------------|
E |-------------------------|
E |-------------------------|
B |--------3----------------|
G |-----0-----0-------------|
D |--0----------------------|
A |-------------------------|
E |-------------------------|
E |-------------------------|
B |------------0------------|
G |--------0----------------|
D |-----2-------------------|
A |--3----------------------|
E |-------------------------|
E |-------------------------|
B |------------0------------|
G |--------0----------------|
D |-----0-------------------|
A |--2----------------------|
E |-------------------------|
E |-------------------------|
B |------------2------------|
G |--------1----------------|
D |-----2-------------------|
A |--0----------------------|
E |-------------------------|
E |-------------------------|
B |--------3----------------|
G |-----2------2------------|
D |--0----------------------|
A |-------------------------|
E |-------------------------|
When the rain comes it seems that everyone has gone away
When the night falls you wonder if you shouldn't find someplace
To run and hide
Escape the pain
But hiding's such a lonely thing to do



I can't stop the rain
From falling down on you again
I can't stop the rain
But I will hold you 'til it goes away

  • ©2001 New Spring / Vandura 2500 Songs
  • Brad Avery, David Carr, Mac Powell, Mark D. Lee, & Samuel Tai Anderson
  • 3526325
printed from https://www.1christian.net/rwtc
 



Use this form to add a link or upload a file that will aid others in learning or using this song.
Add a Link

ie: https://www.youtube.com/watch?v=LubWDy5p6IQ

or

All resources will be reviewed before being added to RWTC.
X

Display Settings

Arial
Lucida
Segoe
Tahoma
Verdana
Times
Mono-Space
10
10
10
Dark Stage Mode
Hide Chords
Hide Lyrics
Nashville
Modern
ChordPro

Sign In

Sign In
     
Cancel
I forgot my password
Content
Create Set List
    click to add setlist name
    created on
    used on


      |

      The set list feature is designed for you to be able to create sets of songs.

      1. Click Create Set List
      2. Add a song by click Add To

      1. When on any page with a list of songs, you can drag-n-drop a song into your list.
      2. When on any song page, click the "Add To Set List" button

      1. Share your set list with others
      2. Use it to display songs while practicing/performing
      3. Use to track your sets

      1. Change the order of the songs by simply dragging to the desired location
      2. Change/save the default song key for each song