Add To

Add To:

Songbook
|
Set List
Create New

Create
A Collision Or (3 + 4 = 7)
We Win
David Crowder Band
A Collision Or (3 + 4 = 7)

Preview (partial song; no chords displayed)

(tune to Eb)


----------------------------------------------------
---9---9-9-9----9--------9---9-9---9-9-9---9-9-9-9--
---9---9-9-9---9---9-----9---9-9---9-9-9---9-9-9-9--
---x---x-x-x--7---7------x---x-x---x-x-x---x-x-x-x--
---7---7-7-7-0-----------7---7-7---7-7-7---7-7-7-7--
-0---0-----------9---0-0----0-----0-------0---------
Jack Chorus:
(left)
------------- ------------------------------------
---------9--- -----------------------9---------9--
---------9--- -----------------------9---------9--
--12--7--7--- --12--7--11--7--12--7--x--7--12--x--
--12--7--x--- --12--7--11--7--12--7--7--7--12--7--
--10--5--0--- --10--5---9--5--10--5--0--5--10--0--
Jack Chorus:
(right)
------------ ------------------------------------
------------ ------------------------------------
------------ ------------------------------------
--12--7--2-- --12--7--11--7--12--7--2--7--12--2--
--12--7--2-- --12--7--11--7--12--7--2--7--12--2--
--10--5--0-- --10--5---9--5--10--5--0--5--10--0--
Solley Chorus:
--12--12--12--12--------------12--
--12--15--12--15--14--15--14--12--
----------------------------------
----------------------------------
----------------------------------
----------------------------------

Lyrics…
We're gonna shout loud, loud until the walls come down.
Shout loud, loud until the wall come down.
Loud until the walls come down!
Cause we've already won and you don't have a chance
Yeah we've already won and no, you don't have a chance
Yeah it's already done and you don't have a chance
Because we've already won,
We have already won
We're gonna shout loud, loud until the final sound
Shout loud, loud until the final sound
Loud until the final sound!
  • ©2005 worshiptogether.com songs / sixsteps Music / Inot Music
  • David Crowder, Jack Parker, & Mike Dodson
  • 4625737
printed from https://www.1christian.net/rwtc
 



Use this form to add a link or upload a file that will aid others in learning or using this song.
Add a Link

ie: https://www.youtube.com/watch?v=LubWDy5p6IQ

or

All resources will be reviewed before being added to RWTC.
X

Display Settings

Arial
Lucida
Segoe
Tahoma
Verdana
Times
Mono-Space
10
10
10
Dark Stage Mode
Hide Chords
Hide Lyrics
Nashville
Modern
ChordPro

Sign In

Sign In
     
Cancel
I forgot my password
Content
Create Set List
    click to add setlist name
    created on
    used on


      |

      The set list feature is designed for you to be able to create sets of songs.

      1. Click Create Set List
      2. Add a song by click Add To

      1. When on any page with a list of songs, you can drag-n-drop a song into your list.
      2. When on any song page, click the "Add To Set List" button

      1. Share your set list with others
      2. Use it to display songs while practicing/performing
      3. Use to track your sets

      1. Change the order of the songs by simply dragging to the desired location
      2. Change/save the default song key for each song