Add To:

Songbook
|
Set List
Create New

Create
Songs Inspired By The Lion The Witch and The Wardrobe
Open Up Your Eyes
Jeremy Camp
Songs Inspired By The Lion The Witch and The Wardrobe

Preview (partial song; no chords displayed)

I know the B2 in the bridge doesn't sound right if you sing along with it, but I
promise it's the same note as in the song. I personally like a Bm there myself,
but I figure Jeremy Camp can play whatever chords he wants.
Bm D/F#
Open up your eyes
G Bm D/F#
And see these warning signs
G A Bm D/F# G Bm D/F# G A
Breaking through your heart and all the reason of your mind
Bm D/F#
Open up to find
G Bm D/F#
Your action leaves behind
G A Bm D/F# G Bm D/F# G A
The very hope that’s given for the world to feel alive, oh
D G
And the time has come to realize
Bm A
And see the plan you’ve been designed for
D G Bm A
So face the fear of all unknown and see the heart inside
Bm D G
So open up your eyes
Bm D G
So open up your eyes
Bm D/F#
Throw yourself aside
G Bm D/F#
And hear the gentle cry
G A Bm D/F# G Bm D/F# G A
Of the voice of peace that gave up all to fill the void inside
Bm D/F#
Give away the fight
G Bm D/F#
Release your foolish pride
G A Bm D/F# G Bm D/F# G A
The very bond is broken down you need to leave behind, oh



Bm A Em B2
Bm A Em B2
Can you sense the feeling that there’s more than what you know?
Bm A Em B2
It’s a fire that burns within that only seems to grow
Bm A Em B2
There’s a price that’s given and which only love can pay
Bm A G
And the time is here and now, don’t let it fade away
Bm D G
So open up your eyes, open up your eyes
Bm D G A
So open up your eyes, open up your eyes






D G Bm A x2
Bm D/F# G x2
---
Bm D/F# G Bm D/F# G A
E-----------------|-----------------|-----------------|-----------------|
B-3-3-3-3-3-3-3-3-|-3-3-3-3-3-3-3-3-|-3-3-3-3-3-3-3-3-|-3-3-3-3-3-3-3-3-|
G-4-4-4-4-4-4-4-4-|-4-4-4-4-4-4-4-4-|-4-4-4-4-4-4-4-4-|-4-4-4-4-4-4-4-4-|
D-----------------|-----------------|-----------------|-----------------|
A-2---------------|-----------------|-2---------------|-------0---------|
E-------2---------|-3---------------|-------2---------|-3---------------|



Bm A Em B2
E-----------------|-----------------|-----------------|-----------------|
B-3-3-3-3-3-3-3-3-|-2-2-2-2-2-2-2-2-|-5-5-5-5-5-5-5-5-|-2-2-2-2-2-2-2-2-|
G-4-4-4-4-4-4-4-4-|-4-4-4-4-4-4-4-4-|-4-4-4-4-4-4-4-4-|-4-4-4-4-4-4-4-4-|
D-----------------|-----------------|-----------------|-----------------|
A-----------------|-----------------|-----------------|-----------------|
E-----------------|-----------------|-----------------|-----------------|



D G Bm A D G Bm A
E-----------------|-----------------|-----------------|-----------------|
B-3-3-3-3-3-3-3-3-|-3-3-3-3-3-3-3-3-|-3-3-3-3-3-3-3-3-|-3-3-3-3-3-3-3-3-|
G-6^7-7-7¡6^7-7-7¡|-6^7-7-7¡6^7-7-7¡|-6^7-7-7¡6^7-7-7¡|-6^7-7-7¡6^7-7-7¡|
D-----------------|-----------------|-----------------|-----------------|
A-----------------|-----------------|-----------------|-----------------|
E-----------------|-----------------|-----------------|-----------------|
Bm D/F# G
E-------0---------|-----------------|-----------------|-----------------|
B-3--------3------|-------3---------|-----------------|------3----------|
G-----4-------4---|----------2------|------4----------|-----------------|
D-----------------|-----0-------0---|----0----0-------|----0----0-------|
A-2---------------|-----------------|-----------------|-----------------|
E-----------------|-2---------------|-3----------3----|-3----------3----|

Bm D/F# G
E-------0---------|-----------------|-0---------------|
B-3--------3------|-------3---------|-3---------------|
G-----4-------4---|----------2------|-0---------------|
D-----------------|-----0-------0---|-0---------------|
A-2---------------|-----------------|-----------------|
E-----------------|-2---------------|-3---------------|
  • ©2005 Thirsty Moon River Publishing / Stolen Pride Music
  • Jeremy Camp
  • 4626420
printed from https://www.1christian.net/rwtc
 



Use this form to add a link or upload a file that will aid others in learning or using this song.
Add a Link

ie: https://www.youtube.com/watch?v=LubWDy5p6IQ

or

All resources will be reviewed before being added to RWTC.
X

Display Settings

Arial
Lucida
Segoe
Tahoma
Verdana
Times
Mono-Space
10
10
10
Dark Stage Mode
Hide Chords
Hide Lyrics
Nashville
Modern
ChordPro
Content
Create Set List
    click to add setlist name
    created on
    used on


      |

      The set list feature is designed for you to be able to create sets of songs.

      1. Click Create Set List
      2. Add a song by click Add To

      1. When on any page with a list of songs, you can drag-n-drop a song into your list.
      2. When on any song page, click the "Add To Set List" button

      1. Share your set list with others
      2. Use it to display songs while practicing/performing
      3. Use to track your sets

      1. Change the order of the songs by simply dragging to the desired location
      2. Change/save the default song key for each song