Add To:

Songbook
|
Set List
Create New

Create
Illuminate
No One Like You
David Crowder Band
Illuminate

Preview (partial song; no chords displayed)

Key: F#
e|---------------------|
B|---2-2-2-2-----------|
G|-----------34-4-3-4--|
D|-----------4---------|hold out this string x4
A|---------------------|
E|---------------------|
e|-------------------------------|
B|-------------------------------|
G|---11-11--8-8--6-6--4-44-44-4--|
D|---11-11--8-8--6-6--4-44-44-4--| x2
A|----9--9--6-6--4-4--2-22-22-2--|
E|-------------------------------|



e|-------------------------------------------|
B|-------------------------------------------|
G|---11-11-11-11-/8-8-8-8-/6-6-6-6-/4-4-4-4--|
D|---11-11-11-11-/8-8-8-8-/6-6-6-6-/4-4-4-4--| x4 palm muted
A|----9--9--9--9-/6-6-6-6-/4-4-4-4-/2-2-2-2--|
E|-------------------------------------------|



e|-------------------------|
B|-------------------------|
G|---6------8-8-10-1010----|
D|---6------8-8-10-1010----|
A|---4------6-6--8--8-8----|
E|-------------------------|



e|----------------|
B|----------------|
G|---11--8--6--4--|
D|---11--8--6--4--| x2
A|----9--9--6--2--|
E|----------------|



e|-------------------------------------------|
B|-------------------------------------------|
G|---11-11-11-11-/8-8-8-8-/6-6-6-6-/4-4-4-4--|
D|---11-11-11-11-/8-8-8-8-/6-6-6-6-/4-4-4-4--| x4 palm muted
A|----9--9--9--9-/6-6-6-6-/4-4-4-4-/2-2-2-2--|
E|-------------------------------------------|



Guitar 1 Guitar 2 Riff 1:
e|----------------| |-------------------------------------------------------|
B|----------------| |-19-19-19-19-16-16-16-16-14-14-14-14-12-12p11-11h12h14-|
G|---11--8--6--4--| |-------------------------------------------------------|
D|---11--8--6--4--| x8 play throughout chorus until the part where
A|----9--9--6--2--| David Crowder repeats you, you then play
E|----------------| the next guitar 2 riff throughout down below
Guitar 2 Riff 2:
e|---14h16p14p13h14h16p14p13--|
B|----------------------------|



Guitar 1 Guitar 2: palm muted
e|---------|
B|---------| |------------------------|
G|---6--4--| |--666666666-4444444444--| slowly come of palm muted
D|---6--4--| |------------------------| slowly getting louder
A|---4--2--|
E|---------|
Repeat Chorus for Guitar 1 but for Guitar 2 play Riff 1 until the pause then
play Riff 2 till the end. There you have it have fun with this perfect tab,
i love this song.
-Anthony Bifano
  • ©2003 worshiptogether.com songs / sixsteps Music / Inot Music
  • David Crowder, Jack Parker, Jason Solley, Jeremy Bush, Mike Dodson & Mike Hogan
  • 4276894
printed from https://www.1christian.net/rwtc
 



Use this form to add a link or upload a file that will aid others in learning or using this song.
Add a Link

ie: https://www.youtube.com/watch?v=LubWDy5p6IQ

or

All resources will be reviewed before being added to RWTC.
X

Display Settings

Arial
Lucida
Segoe
Tahoma
Verdana
Times
Mono-Space
10
10
10
Dark Stage Mode
Hide Chords
Hide Lyrics
Nashville
Modern
ChordPro

Sign In

Sign In
     
Cancel
I forgot my password
Content
Create Set List
    click to add setlist name
    created on
    used on


      |

      The set list feature is designed for you to be able to create sets of songs.

      1. Click Create Set List
      2. Add a song by click Add To

      1. When on any page with a list of songs, you can drag-n-drop a song into your list.
      2. When on any song page, click the "Add To Set List" button

      1. Share your set list with others
      2. Use it to display songs while practicing/performing
      3. Use to track your sets

      1. Change the order of the songs by simply dragging to the desired location
      2. Change/save the default song key for each song