Add To:

Songbook
|
Set List
Create New

Create
Time
I've Always Loved You
Third Day
Time
  1. A
  2. Bb
  3. B
  4. C
  5. Db
  6. D
  7. Eb
  8. E
  9. F
  10. F#
  11. G
  12. Ab

Preview (partial song; no chords displayed)

e---000----000----000----000----0--0---3-3-3-3-3-3
b---111----111----111----111----1--1---0-1-0-1-0-1
g---000----000----000----000----0--0---0-0-0-0-0-0
d-2-----0-------3------2-----3----2--0------------
a-------------------------------------------------
E-------------------------------------------------
"Dont you know I've always loved you"
-0-0-0-----0-0-0----0-0-0----0-0-0----0---0----3-3-3-3-3-3-3-3
-1-1-1-----1-1-1----1-1-1----1-1-1----1---1----0-1-0-1-0-1-0-1
-0-0-0-----0-0-0----0-0-0----0-0-0----0---0----0-0-0-0-0-0-0-0
-2-2-2-----0-0-0----3-3-3----2-2-2----3---2----0-0-0-0-0-0-0-0
-3-3-3-----2-2-2----0-0-0----3-3-3----0---3----2-2-2-2-2-2-2-2
-----------3-3-3-------------------------------3-3-3-3-3-3-3-3
"Greater love has not a man"
-0-0-0-----0-0-0----------0-0-0-----0--0
-1-1-1-----1-1-1----------1-1-1-----1--1
-0-0-0-----0-0-0----------0-0-0-----0--0
-2-2-2-----3-3-3----------2-2-2-----2--0
-0-0-0-----0-0-0----------3-3-3-----3--2
----------------------------------------
"Don't you know I've always loved you even before time"
-0-0-0-0-----0-0-0-0-----0--0----0-0-0-0
-1-1-1-1-----1-1-1-1-----1--1----1-1-1-1
-0-0-0-0-----0-0-0-0-----0--0----0-0-0-0
-2-2-2-2-----3-3-3-3-----2--0----2-2-2-2
-0-0-0-0-----0-0-0-0-----3--2----0-0-0-0
----------------------------------------
"Though you turn away"
------------0---------0----3--3-3-3-3-3-3-3
------------1---------1----0--0-1-0-1-0-1-0
------------0---------0----0--0-0-0-0-0-0-0
--------3---------2--------0---------------
--------0---------3--------2---------------
---------------------------3---------------
  • ©1999 New Spring Publishing, Inc.
  • Brad Avery, David Carr, Mac Powell, Mark D. Lee & Samuel Tai Anderson
  • 3013144
printed from https://www.1christian.net/rwtc
 



Use this form to add a link or upload a file that will aid others in learning or using this song.
Add a Link

ie: https://www.youtube.com/watch?v=LubWDy5p6IQ

or

All resources will be reviewed before being added to RWTC.
X

Display Settings

Arial
Lucida
Segoe
Tahoma
Verdana
Times
Mono-Space
10
10
10
Dark Stage Mode
Hide Chords
Hide Lyrics
Nashville
Modern
ChordPro

Sign In

Sign In
     
Cancel
I forgot my password
Content
Create Set List
    click to add setlist name
    created on
    used on


      |

      The set list feature is designed for you to be able to create sets of songs.

      1. Click Create Set List
      2. Add a song by click Add To

      1. When on any page with a list of songs, you can drag-n-drop a song into your list.
      2. When on any song page, click the "Add To Set List" button

      1. Share your set list with others
      2. Use it to display songs while practicing/performing
      3. Use to track your sets

      1. Change the order of the songs by simply dragging to the desired location
      2. Change/save the default song key for each song